¿Cuales son los usos de los intervalos?

#1 por condor el 05/01/2010
Hola, estuve repasando los intervalos y retomando algo del tema que me había quedado colgado. Creo que entendi bastante lo básico.

Me queda la duda de la utilidad de conocer las distancias entre notas. ¿Se trata únicamente para la formación de acordes o puede servir para la improvisación?

Gracias.
Subir
#2 por tyron el 05/01/2010
Pues tienes que tener en cuenta que los intervalos es la base de la armonia en general. Te valen para formar acordes, escalas y para cualquier cosa.jeje
En cuanto improvisacion pues a parte de lo que te digo de la formacion de escalas, si sabes donde estan las tonicas terceras septimas quintas sextas y demas pues puedes resolver sobre las notas que tu prefieras para darle un color u otro a tus frases.:cool:
Subir
#3 por condor el 05/01/2010
Ok.

Formación de acordes: Lo que me queda por entender es de donde saco las intervalos para formar cada uno. Por ejemplo como se forma el acorde Csus4/F (por decir algo)

Improvisación: Como se que escala o notas podrían entrar bien en una base de por ejemplo : G7 C7 D7.

Doy ejemplos para explicarme.

Gracias por la ayuda.
Subir
#5 por monteverdi el 05/01/2010
Bueno, como de costumbre, yo no te remitiré a los manuales de teoria. Vayamos a la práctica, te pongo algunos ejemplos y sorry por las tablaturas tan patateras.
Mira la tipica rola coutry rockera con intervalos de 6a (A7 o F#-7):

1)----9-----7-----5-------------
2)--------------------------------
3)--9---9-7---7-6---6-----------
4)-------------------------------
5)------------------------------
6)-------------------------------

O la bluesera con terceras (A-7 o A7)):
1)--------------------------------------
2)--4_5---7---7^8--8---8--6_7---4_5---
3)--4_5---7---7-----7---7--6_7---4_5---
4)---------------------------------------
5)---------------------------------------
---------------------------------------

O la "Jazzy avantgarde" con segundas y terceras (sobre A-7 o A7):

1)---5-----5--------------------------
2)---9-8---9---5------5---------------
3)--------------8-7----7----5-----5---
4)---------------------------7-6--7----
5)-------------------------------------

Faltan los trullos típicos a la Hendrix sobre la pentatónica, muy famosos y quedones, y que si te interesan especialmente, te los pongo, pero vaya.
Otra cosa:
Si tomas una progresión de tríadas en las tres primeras cuerdas, tienes una cantera para jugar con intervalos, a la par que para tener un buen mapa armónico en el mástil o tocar buenos ritmos:

1)-2------3------5------7------9------10-------12----------14-
2)--3------5------7------9-----10------12-------14----------15
3)---2------4------6------7------9-------11-------12---------14
Iº(M) IIº(m) IIIº(m) IVº(M) Vº(M) VIº(m) VIIº(semidis) VIIIº



Esto es material básico que se puede variar a tope. La verdad es que hay a patadas de estos trullos guitarreros. Cualquier duda, ya sabes.
Subir
#6 por condor el 07/01/2010
Gracias.


-----
Subir
Respuesta rápida

Regístrate o para poder postear en este hilo