Correcto tab de Smells like teen spirit

#1 por asteroin el 05/05/2010
Hola

bueno les comento, he revisado unos 80 mil videos de esa cancion tocada por nirvana en vivo y he intentado bajarme tab en internet pero hay un monton de versiones..

He notado que hay dos versiones de la parte del verso

Verses 1

e-----------1-----------------------------------]
h--1--------------------------------------------]

Verse: 2
|---6~-|
|-5----|

Y he visto que pareceria que Kurt usa la version 2

Para la parte del Solo

Solo Version 1:
|-------------------------------------------------------------------|
|---4-6-------------------------------4-6---------------------------|
|-5-------4-4b6-4-2-----------------5-------4-4b6-4-2---------------|
|-------6-----------3-1-3-1-3b5-3-1-------6-----------


Solo Version 2:

e--------------------------------------------------------------------------]
h--------------------------------------------------------------------------]
g-------8----10-------8--8b--6--5---6-5------------------------------------]
D--10-------------6-----------------------8--6--8--8b--6--5


Para esta parte kurt sus manos no las pone tan abajo como para llegar al traste 10...8 ..si no que esta en el 4 ..6...

A parte tmb hay como 3 versiones del intro...

En conclusion ...alguien sabe o tiene por favor la tablatura de la cancion , a si como la tocaba kurt cobain ?? :D

Otra cosa, tambien me he percatado que usaban amplificadores Marshall,
bueno queria preguntarles a los que han sacado la cancion y tengan un amp marshall, para la parte clean como ponen los controles de bass...distorcion..reverse..etc ...

y si para la parte de distorcion que efecto se compraron? boss??

Gracias x sus aiudas
Subir
Baneado
#2 por emanza89 el 05/05/2010
Da igual que toques una cosa o la otra, porque son las mismas notas.
La unica diferencia es que las cuerdas mas gruesas tienen un sonido mas grueso, con mas grave y mas cuerpo (pero es un leve matiz). Asi que da exactamente igual.
El limpio me da que es en la pastilla del puente y con un pelin de reverb, las ecualizaciones buscalas en el google que seguro que las hay. Pero yo diria que va cargadito de medios y pocos graves.
Para la distorsion usa un overdrive-fuzz, tipo Big Muff.
Subir
#3 por enzo_adv el 29/07/2010
depende, deberias tocar las versiones y ver cual se asemeja mas a la original y si encuentras algun error en la mas parecida puedes arreglarelko y tocar la cancion a tu manera y no tratar de tocar como kurt porque nunca lo lograras


Entra a--->http://m3talxbullet.blogspot.com/ <---Mi blog

Subir
Respuesta rápida

Regístrate o para poder postear en este hilo