Es correcto esto que saque de oido (Otherside RHCP)?

#1 por braianwilson el 25/01/2014
buenas gente, estaba sacando un tema que mas o menos sabia como iba la mano por tablaturas pero no me convencia ya que le faltaba fuerza (y no creo que sea por la falta del bajo, la guitarra esta haciendo sonar algunas notas mas de las que parece). asi que me lo puse a sacar de oido y llegue a esto. les parece que es asi?
ademas, puede ser que el acorde sea siempre E5/A?



aca el tema, la parte que les comento es la que comienza desde el minuto 2:52


Puente (a todas los acordes se le puede agregar la nota E abierta de la 6° cuerda)

-0---0-0---0-0---0---0---0---0----------------------
-0---0-0---0-0---0---0---0---0----------------------
-9---9-9---9-9---9---9---9---9----------------------
-9---9-9---9-9---9---9---9---9----------------------
-x---x-x---x-x---x---x---x---x----------------------
-------------------------------------------------------

-0---0-0---0-0---0---0---0---0----------------------
-12--1212--1212--12--12--12--12------------------
-9---9-9---9-9---9---9---9---9----------------------
-9---9-9---9-9---9---9---9---9----------------------
-x---x-x---x-x---x---x---x---x----------------------
--------------------------------------------------------





-12--1212--1212--12--12--12--12------------------\                               
-0---0-0---0-0---0---0---0---0----------------------                                
-9---9-9---9-9---9---9---9---9----------------------                                
-9---9-9---9-9---9---9---9---9----------------------                                
-x---x-x---x-x---x---x---x---x----------------------                                 
--------------------------------------------------------                                
                                                                                                                            
                                                                                                                        X3                    
-0---0-0---0-0---0---0---0---0----------------------                              
-12--1212--1212--12--12--12--12------------------                             
-9---9-9---9-9---9---9---9---9----------------------                              
-9---9-9---9-9---9---9---9---9----------------------                              
-x---x-x---x-x---x---x---x---x----------------------                               
--------------------------------------------------------/



gracias por la ayuda saludos!
Subir
#2 por serginho_92 el 26/01/2014
Yo en esa parte toco solamente las dos primeras cuerdas alternando los trastes 0 y 12 en cada cuerda. Quizás lo que le falte fuerza que dices es por la falta de efectos o algo así, como que cruje no? A mi personalmente así me suena bien, además que en esa parte golpeo las cuerdas con mucha fuerza jajaja.

No sé chico, prueba diferentes formas mira diferentes tablaturas y sobretodo con el oído hasta que veas que es lo que mejor te suena!

Un saludo :)

Dame seis cuerdas y seré feliz.

Subir
1
#3 por braianwilson el 26/01/2014
probablemente, sea por la falta de efectos, lo voy a probar de esa manera, gracias por la ayuda!
Subir
1
Respuesta rápida

Regístrate o para poder postear en este hilo