Como pickinguearías esto?

#1 por Gáels el 17/10/2013
Hola,

Tengo una duda sobre la forma más óptima para hacer picking sobre estas notas lo más rápido posible.

--------------------------12-------------------------
----12----13----15----------15----13----12---
------------------------------------------------------
------------------------------------------------------
------------------------------------------------------



Personalmente veo 2 formas posibles:


T = hacia arriba.
B = hacia abajo

--------------------------12------------------------
----12----13----15----------15----13----12--
----B------T------B-----T-----B-----T------B---
-----------------------------------------------------
-----------------------------------------------------

y

--------------------------12------------------------
----12----13----15----------15----13----12--
----B------T------B-----B-----T-----B-----T----
-----------------------------------------------------
-----------------------------------------------------


Como lo haríais vosotros? Por qué?

Un Saludo.
Subir
#2 por eryou el 17/10/2013
Con economy picking diría que puede hacerse más rápido pero con alternate se acentúa mejor. Así que depende qué figuras se utilicen, qué ritmo armónico melódico lleve y a qué velocidad, utilizaría uno u otro.

CLASES DE GUITARRA ELÉCTRICA, TEORÍA MUSICAL Y COMPOSICIÓN, PRESENCIALES Y ONLINE

Subir
#3 por Olverio el 17/10/2013
Gáels escribió:
Como pickinguearías esto?


tumblr_m6xcypXSeV1qze8f7.gif

"The tone isn´t in your fingers, it´s in the knob near the volume button"

Subir
1
#4 por Gáels el 17/10/2013
Gracias Eryou!

Hasta ahora solo había utilizado economy picking pero empecé a ir a clases y mi profesor utiliza el alternate. Lo hace realmente rápido con el alternate! El tema es que al empezar con el alternate después de utilizar el economy toda la vida me siento como un niño empezando a tocar por 1º vez.


jajajaja lo del "pickinguearías " sé que no existe.... Pero bueno, me gusta el ".GIF" de todas formas :)
Subir
#5 por N.C. el 17/10/2013
De la manera que me sea más cómoda
Subir
#6 por MarcRocket el 24/10/2013
Yo... economy picking

Soy parte del grupo Cabodano, de Santiago de Compostela. Toco la guitarra rítmica y coros.

Subir
#7 por carlosgama el 27/10/2013
depende, de donde te dirijas, si sigues subiendo utilizaría el economy pero si tu intención es volver hacia abajo como lo hace Paul Gilbert en sus clinicas entonces lo haría en alternate, también teniendo en cuenta que muy seguramente en alternate quedara un sonido en " marcato".

Clases de armonía, guitarra moderna y clásica.

Subir
#8 por Gáels el 30/10/2013
Gracias por las respuestas.

Finalmente voy a intentar acostumbrarme al alternate, me parece una técnica más cómoda a la hora de intentar aprender un nuevo lick de forma más rápida por el hecho de que tienes un movimiento fijo de muñeca.

Un saludo.
Subir

HILOS SIMILARES

Respuesta rápida

Regístrate o para poder postear en este hilo