como se llaman estos acordes/escalas?

#1 por Oxer el 11/07/2009
bueno, despues de siglo y medio sin comentar vuelvo para hacer una pregunta teorica
en clase me dieron unos acordes, me explicaron cuando se usan y todo eso, y lo apunte en un papel. Pero perdi el papel, y ahora me acuerdo de todo menos del nombre

os escribo los acordes en el trate 5 (A en la 6ª cuerda y D en la 5ª)
la X indica que no toco nada en esa cuerda, que si no se me descuadra

E--X------X------X------X
B--6------7------4------5
G--6------6------5------6
D--5------5------5------6
A--X------X------X-----·X
E--5------5------5------5


E--X------X------X------X-----X
B--7------6------6------5------5
G--6------4------5------5------5
D--7------6------6------4------3
A--5------5------5------5------5
E--X------X------X------X-----X


si me falta alguno importante me lo podrian decir?



a parte me saque a oido una escalita con su acorde respectivo
seria la escala menor con 7ª mayor, y el acorde lo mismo
tampoco se como se llama formalmente

un saludo!:brindis:
Subir
#2 por pepto el 11/07/2009
Los acordes no se cuales son.La escala es menor armonica.
Subir
#3 por Oxer el 11/07/2009
ok, gracias.
---------------------------------
me corre cierta prisa por que esta tarde tengo jam y sin saberlo me voy a liar un poco
graciass;)
Subir
#4 por dark_wise el 11/07/2009
Si lso pones en el guitar pro y apretas la letra A te da la respuesta:saludo:
Subir
#5 por Oxer el 11/07/2009
bueno gracias, pero a salen los nombres en chino parecen letras al azar...
yo se por ejemplo que habia alguno que era semidisminuido o algo asi, y que se representaba con un circulito cortado por una barra... pero no se cual
algun jazzero? que de esto saben mas
un saludo
Subir
#6 por Oxer el 23/07/2009
ey?? aguien ahi?
Subir
#7 por ace777 el 23/07/2009
A ver...el tema de los nombres de los acordes es complicado, por que dependiendo de la tonalidad en que esta escrita una obra un mismo acorde puede tener nombres diferentes...por ejemplo: en una cancion puede aparecer el acorde de Sol # y en otra, el mismo acorde puede aparecer como La bemol...
De todas formas aqui va mi intento

E--X----------X--------X----------X
B--6----------7--------4----------5
G--6----------6--------5----------6
D--5----------5--------5----------6
A--X----------X--------X---------·X
E--5-----------5--------5----------5
La7/5# La7/13 Lam7/5b La maj7


E--X----------X----------X----------X---------X
B--7----------6----------6----------5----------5
G--6----------4----------5----------5----------5
D--7----------6----------6----------4----------3
A--5----------5----------5----------5----------5
E--X----------X----------X----------X----------X
Re maj7 Re º Re m7/5b Re 9 Re m 9
(Disminuido)


Bueno, es eso, con respecto a la escala, como bien te dijeron es la escala menor armonica y se puede usar sobre una base en tono menor sobre el 5º grado, es decir sobre es dominante de la tonalidad
Ej; si la base esta en La menor podes usar la escala de La menor armonica cuando la base toca el dominante, en este caso seria el Mi 7

Espero que sirva el dato
Chau.-
Subir
#8 por Oxer el 23/07/2009
ok muchas gracias!!! como ultima pregunta, despues de haber visto eso, como se pondria un Aº?
Subir
#9 por ace777 el 23/07/2009
Un La Disminuido?

hay varias formas

una seria asi

----5-----------x---------------------8----------- x-------
----7-----------4---------------------7-----------13--------
----5-----------5---------------------8-----------11--------
----7-----------4--------------------(7)----------13---------
----6-----------x---------------------x----------(12)------
---(5)----------(5)--------------------x-----------x---------
Aº o así Aº o así tambien Aº o así Aº

Bueno, hay algunas mas, pero esa son las basicas.
Entre Parentesis () te escribi la nota que le da nombre al acorde, en este caso La, asi si queres podes usar estas posiciones para buscar disminuidos en otras tonalidades.
Chau
Subir
#10 por Oxer el 06/08/2009
oh gracias con atraso, no vi tu post antes
Subir

HILOS SIMILARES

Respuesta rápida

Regístrate o para poder postear en este hilo