como ejecutar esto?

#1 por otiman el 21/06/2010
|-------12-------------12-------------12-------------12-------|
|-15b17----15p12----------15p12-15b17----15p12----------15p12-|
|----------------14b16-------------------------14b16----------|
|-------------------------------------------------------------|
|-------------------------------------------------------------|
|-------------------------------------------------------------|

weno quiero sabe rcomo se ejecuta ..
porq hace unos meses q lo intento sacar peor no me sale con velocidad..



salu2
Subir
#2 por -willis- el 21/06/2010
De que cancion es ¿?

Tengo 18 años me registre mal!!!

Subir
#3 por steve506 el 21/06/2010
es el lick de blues más usado del mundo....

la b significa bend, debes estirar la nota un tono...

la p es un pulloff, puede ser con el dedo 3 o el dedo 4

Y si llevas meses practicando esto sin que te salga, creo que lo mejor es que empieces a iniciarte en la guitarra desde el principio, valga la redundancia....que desarrolles una formacion apropiada antes de ponerte a tocar cosas que todavia no manejas...es un consejo amistoso! :ok:

Un saludo! :brindis:

No comparto tus ideas, pero moriría por defender tu derecho a expresarlas.

Subir
#4 por otiman el 22/06/2010
steve506 escribió:
es el lick de blues más usado del mundo....

la b significa bend, debes estirar la nota un tono...

la p es un pulloff, puede ser con el dedo 3 o el dedo 4

Y si llevas meses practicando esto sin que te salga, creo que lo mejor es que empieces a iniciarte en la guitarra desde el principio, valga la redundancia....que desarrolles una formacion apropiada antes de ponerte a tocar cosas que todavia no manejas...es un consejo amistoso! :ok:

Un saludo! :brindis:

me sale sin el pull off..
con el pull off pierdo velocidad:S
Subir
#5 por steve506 el 22/06/2010
no se trata de que ganes o pierdas nada...hay que ser capaz de hacerlo...de ambas formas

No comparto tus ideas, pero moriría por defender tu derecho a expresarlas.

Subir
#6 por asphix el 22/06/2010
Practicalo despacio, mecaniza cada movimiento, una vez que lo puedas tocar comodamente y fluido intentas subir gradualmente la velocidad, lo primero es afianzar bien cada una de las notas y sus tecnicas...

-----------------------------------------------------
La falta de talento se puede compensar con disciplina...

Subir
#7 por michael bolívar el 22/06/2010
yo creo que si acabas de empezar a tocar la guitarra, no deberias empezar con un barrido, empieza con cosas mas sencillas para coger base, como carrie de europe, o algo asi

http://www.youtube.com/watch?v=iAcXo8OWKs8

Subir
#8 por p0g00 el 23/06/2010
intenta practicando mientras lo escuchas :)
Subir
#9 por nsal69 el 23/06/2010
nunca lo habia visto ... :shock:

lo encuentro medio enredado para tocarlo .

Alguien tiene un video en el cual se toque esta parte ?

Saludos ! :ok:

Mira mi cover del solo de Beat it - Van Halen :P
http://www.youtube.com/watch?v=XcNHq3C1KyU

Subir
#10 por jebi el 24/06/2010
Dejando de lado que debas practicar más o no. Creo que esta digitación es más cómoda.
---12-12-------------12-----------12-12-------------12------
15-------15-12----12----15-12-15-------15-12----12---15-12
--------------------------------------------------------------
--------------------------------------------------------------
--------------------------------------------------------------
--------------------------------------------------------------
Subir
#11 por nohopenoglove el 24/06/2010
hostia!!! esto es un foro de locos...
y yo soy Malmsteen
Subir
Respuesta rápida

Regístrate o para poder postear en este hilo