Canciones para tocar un novato

#1 por wildfire el 30/01/2009
SUNSHINE OF YOUR LOVE - Cream
|-----------------------------------------
|-----------------------------------------
|-7---7---5---7---------------------------
|-------------------7---6---5---0---3---0-
|-----------------------------------------
|-----------------------------------------
El Padrino
|----8--11--10--8--10--8—11--8-----------------------
|--8-------------------------------9--11--8|-8--7--6-
|----------------------------------------------------
|----------------------------------------------------
|----------------------------------------------------
|----------------------------------------------------



ENTER SANDMAN -Metallica
|----------------------------
|----------------------------
|----------------------------
|------------5---------------
|--------7---------------7---
|----0-----------6---5-------
ELECTRIC FUNERAL–Sabbath
|------------------------|
|------------------------|
|------------------------|
|------------------------|
|-----3-4-3--------------|
|-1-1---------1-3-4-3----|
GEORG BAKER - Little Green Bag
|-----------------------|----------------------------
|-----------------------|----------------------------
|-0---0-3-0---0-0-------|----------------------0-3-0-
|---3-------3-----3---0-|---0---0-3-0---0-3----------
|-------------------3---|-----3-------3--------------
|-----------------------|----------------------------



ZZ TOP – La Grange
|-----------------|-------------------|
|-----------------|-------------------|
|-2-2---2---2---2-|---2-----------5---|
|-2-2---2---2---2-|---2------5--------|
|-----------------|-------0-(0)-0---0-|
|-----------------|-------------------|
MR. CROWLEY – Ozzy osbourne
|--------------------------------------|
|--------------------------------------|
|--------0-2------2-0----0-2--4-5------|
|-0--2-3------2-------3------------5---|
|---------------0--------------------3-|
|--------------------------------------|



HOLY WARS THE PUNISHMENT -Megadeth
|--------------------------------------|
|--------------------------------------|
|--------------------------------------|
|--------------------------------------|
|-5-6-7--------------------------------|
|---------5-6-7---7-6-5---5-4-3---5-3-0|
ONE - Metallica
|-------------|-------------|--------------|------------------|
|-------------|-------------|--------------|----------------0-|
|-----4-----0-|----4-----0--|-----4-----0--|-----4-----0------|
|--2-----2----|-------------|--2-----2-----|------------------|
|-------------|-3-----3-----|--------------|--3-----3---------|


COME AS YOU ARE – Nirvana
|--------------------------------------------------------|
|----------------------------------------------9---------|
|---------9--11----------9--11----------9--11-----11--9--|
|---11-------------11-------------11---------------------|
|--------------------------------------------------------|
|--------------------------------------------------------|
SWEET DREAMS Marilyn Manson
|--------------------------|
|--------------------------|
|--------------------------|
|--------5-----6-----5-----|
|--3--3-----3-----3-----3--|
|--------------------------|




THE HELLION –Judas Priest

|-----------------------|--------7--5~~-------|
|--------8--7~~---------|----------------8~~--|
|----------------9~~----|---------------------|
|-----------------------|-----7---------------|
|-----7-----------------|--5------------------|
|--0--------------------|---------------------|
BREAKIN THE LAW Judas Priest

|----------------|---------------|------------------|--------------|
|----------------|---------------|------------------|--------------|
|----------------|---------------|------------------|--------------|
|----------------|---------------|------------------|--------------|
|-0--2--3---0--2-|-3---0--2---3--|---------0--------|-0------3---2-|
|----------------|---------------|-1---3-------1--3-|-----3--------|



NOTHING ELSE MATTERS -Metallica

|-----------0--------|-----------0--------|
|--------0-----0-----|--------0-----0-----|
|-----0-----------0--|-----0-----------0--|
|--------------------|--------------------|
|--------------------|--------------------|
|--0-----------------|--0-----------------|
|-----------0-----7--|--7--------7p0-------|--------7--8--7h87\5-|--7--5/2--|
|--------0-----0-----|-----0-----0---0-----|--0-----0--0---------|--0-----5--|
|-----0--------------|--------0---------0--|-----0---------------|-----------|
|--------------------|---------------------|---------------------|-----------|
|--------------------|---------------------|---------------------|-----------|
|--0-----------------|--0------------------|--0------------------|-----------|



STILL LOVING YOU - Scorpions
|---7--------7---------7------10\9-7-------7---------|
|-----9--------9---------9-----------9--9----9-------|
|-------8--------8---------8------------8------8-----|
|---------------------------------------9--------9---|
|-6---------9--------7------------------7------------|
|----------------------------------------------------|
SWEET DREAMS - Marilyn Manson
|-----------------------------------|
|-----------------------------------|
|-----------------------------------|
|-------5----6---5------------------|
|---3-3---3----3---3----6/8----5/6--|
|--------------------44-----33------|



CRAZY TRAIN-Ozzy Osbourne
|-----------------------------|
|-----------------------------|
|-----------------------------|
|-----------------------------|
|------00---------55----------|
|--22-----00--22------00--22--|

|-------------------------------------------------|
|-------------------------------------------------|
|-------------------------------------------------|
|-------------------------------------------------|
|-------4-----5-----4-----2-----------2-----------|
|--2--2----2-----2-----2-----5--4--5-----5--4--0--|



SNAKES OF CHRIST – Danzig

|---------------------------------|------------------------|
|---------------------------------|------------------------|
|---------------------------------|------------------------|
|---------------------------------|------------------------|
|---7~----6~----5~----------------|---7~----6~----5~-------|
|-5-----5-----5-----5-8---5---8p5-|-5-----5-----5-----5-8--|
777 Danzig

|-----------------------------------------------------------|
|------------------------------------------------3----------|
|-----------------------------------------------------------|
|-------------------------------------------------------3-2-|
|-----------------------------------------------------------|
|-0-0---0-0-0-3^---0-0---0-0-0-3^---0-0---0-0-0-----0-------|




LOCHNESS Judas Priest

|----12-------15----15-14----10-------|----12-------19----19-17----15-14-----|
|-12-------12--------------------12---|-12-------12----------------------17--|
|-------------------------------------|--------------------------------------|
|-------------------------------------|--------------------------------------|
|-------------------------------------|--------------------------------------|
|-------------------------------------|--------------------------------------|

|-----12------15----15-14----10-------|----12-------19----17----22-20-19--|
|-12-------12--------------------12---|-12-------12-----------------------|
|-------------------------------------|-----------------------------------|
|-------------------------------------|-----------------------------------|
|-------------------------------------|-----------------------------------|
|-------------------------------------|-----------------------------------|



WHITE STRIPES -7 nation army

|--------------------------------------|
|--------------------------------------|
|--------------------------------------|
|--------------------------------------|
|---7----7----10----7----5----3----2---|
|--------------------------------------|


Estas son las que toco y alguna mas si me pueden decir mas para ir practicando
Subir
Baneado
#2 por Odio al Venereas el 30/01/2009
La de marilyn manson me la se, esta repetida, la segunda opcion es mejor, mas completa, solo viene el riff, en ninguna pones la cancion entera, es muy divertido aprendersela entera, en donde pone transcripciones encontraras mas cosillas, aqui te dejo 2 riffs para que practices colega.

IRON MAN- BLACK SABBATH

I-------------------------------------------------I
I-------------------------------------------------I
I-------------------------------------------------I
I-------------------------------------------------I
I-9/12-12-14-14--18-17-18-17-18--12-12--14-14-I
I-7/10-10-12-12--16-15-16-15-16--10-10--12-12-I

Riff Cuando Lloran Las Guitarras (Grupo anonimo)

I---------------------------------------------------------------I
I---------------------------------------------------------------I
I-2-5-9--2--5-9--2-5-9--2--5-9--0-4-8--0--4-8--0-4-8--0--4-8-I
I----------------------------------------------------------------I
I----------------------------------------------------------------I
I----------------------------------------------------------------I

Suerte y que lo disfrutes

Firma libre: Imaginala a tu gusto

Subir
#3 por guitarherofuture el 07/02/2009
mmm, yo me toco algunas de las canciones que dice wildfire, y tambien le puedo agregar esta:

SWEET CHILD O MINE

|-------------------15-------14-------- ...
|------15------------------------------ ...
|----------14--12-------14-------14--- ...
|---12--------------------------------- ...
|-------------------------------------- ...
|-------------------------------------- ...

Ta luego.
Subir
Baneado
#4 por Odio al Venereas el 07/02/2009
Aqui te dejo el riff de fear of the dark de iron maiden

I-----------------------------------------I
I-----------------------------------------I
I-----------------------------------------I
I---7-5-7---7-5-5-7---7-5-7---7-5-5-7---I
I-5-------5----------5-------5---------5-I
I-----------------------------------------I

Firma libre: Imaginala a tu gusto

Subir
#5 por sompas el 08/02/2009
dammit de blink 182

e-------------------------------------------------------
B-------------------------------------------------------
G-------------------------------------------------------
D-----0-0-2-------0-0-2-------0-0-2-------2-2-0---------
A-3-3---------------------0-0---------------------------
E-------------3-3---------------------1-1---------------
Subir
Baneado
#6 por Odio al Venereas el 08/02/2009
The foetus of a new day kicking- de Cradle of Filth

I-7----7----7---8-----8-----8----------------------------I
I--5-5--5-5--5----5-5---5-5---5-----------5-6-5-3-5-6-5-I
I---------------------------------5-6p5-2-----------------I
I----------------------------------------------------------I
I----------------------------------------------------------I
I----------------------------------------------------------I

PD: wildfire, tu seguro que no te aburres.
I--

Firma libre: Imaginala a tu gusto

Subir
#7 por wildfire el 08/02/2009
Avkho ahora que me fijo eres de Zaragoza , vas a clases??
Subir
Baneado
#8 por Odio al Venereas el 08/02/2009
No, no voy, pero me gustaria, soy autodidacta, pero mi hermano cuando puede me enseña cosas muy utiles, porque lo decias?

Firma libre: Imaginala a tu gusto

Subir
#9 por wildfire el 09/02/2009
Era por saber donde hay clases de guitarra
Subir
Baneado
#10 por Odio al Venereas el 09/02/2009
En muchos sitios... En el periodico vienen bastantes anuncios de clases de guitarra musica y cosas de esas.

Firma libre: Imaginala a tu gusto

Subir
#11 por Raptor7 el 09/02/2009
Me las apunto para empezar a practicar...

Muchas gracias. :ok:

Saludos.

Y he cambiado tus malas artes por mi fiel Stratocaster...

Subir
#12 por Chanchosmith el 13/02/2009
para mi temas faciles de tocar completos (es la gracia) son

dream on - aerosmith
killing in the name of- rage againts the machine
smell like teen spirit - nirvana


sobre todo el de nirvana es muy facil, claro que se necesita tecnica para que suene bien bien;)

http://www.facebook.com/BandaVoyyVuelvo
http://soundcloud.com/voyyvuelvo
http://www.youtube.com/bandavoyyvuelvo

http://www.chilemusicos.net/comunidad/sh...tid=132475

Subir
Respuesta rápida

Regístrate o para poder postear en este hilo