busco rolas que tengan quintas

  • 1
#1 por RiiKi LIRA el 01/09/2012
hora si espero explicarme busco grandes rolas chidas de rock heavy metal ake me refiero a esto

E|-------------------------------------------------------------|
B|-------------------------------------------------------------|
G|-------------------------------------------------------------| (2x) (na 2ªvez começa o solo)
D|--9-9-----12--12----7-7----5-5----5-5----7-7----9-9----9-9---|
A|-7-7-7---9---9--9--5-5-5--3-3-3--3-3-3--5-5-5--7-7-7--7-7-7--|
E|-------------------------------------------------------------|

asi busco rolas ocn el riff de nirvana asi busco rolas ocn estas tab ya que tnego mucha agilidad es mis mano izquierda

Intro and mainriff. (chords are F, Bb, G#, C#)

e------------------------------------------------------------]
h------------------------------------------------------------]
g------------------------3--3-------------------------6--6---]
D--3---3--3--------------3--3---6---6--6--------------6--6---]
A--3---3--3--x--x--x--x--1--1---6---6--6--x--x--x--x--4--4---]
E--1---1--1--x--x--x--x---------4---4--4--x--x--x--x---------]

espero me ayudenn :palmas2:
Subir
#2 por Freks el 01/09/2012
el 99.99% de la musica con una guitarra distorsionada tiene quintas , o mas aun, el rock en general
Subir
#3 por francofff el 01/09/2012
Busca rolas de punk, entonces tendras infinidades de temas con quintas. Por cierto si quieres da un vistazo a mi hilo donde tambien "busco" http://www.guitarristas.info/foros/busco-desestresarme/197101

Los Stones deberán devolver Discos de Oro por dar positivo en pruebas de dopaje.

Subir
--334474--
#4 por --334474-- el 02/09/2012
RiiKi LIRA escribió:
espero explicarme


Pues escribe mejor, y ya no te digo sin faltas de ortografía, si no con un poco de sentido...
Subir
#5 por usuario18 el 02/09/2012
pero si tienes mucha agilidad con la mano izquierda,no te convendrá practicar cosas más complejas?
Subir
#6 por yellow dog el 02/09/2012
off-topic
francofff escribió:
Por cierto si quieres da un vistazo a mi hilo donde tambien "busco" http://www.guitarristas.info/foros/busco-desestresarme/197101


Impactado por la claridad de ideas en cuanto a lo que quieres, yo siento no tener esa capacidad de locucion y sobre todo de raciocinio para conocer lo que busco.


Mucho rock compañeros.
Subir
#7 por RiiKi LIRA el 02/09/2012
demen algunos temas por favor
Subir
#8 por francofff el 02/09/2012
Yan Non ten doyn nadan.

Los Stones deberán devolver Discos de Oro por dar positivo en pruebas de dopaje.

Subir
#9 por Karlson el 02/09/2012
#8
juassssss, me parto...

si es que no entiendo nada, ¿que es una "...rolas chidas..."?
A ver si podemos escribir un poco mejor....
Subir
#10 por vcpmusic el 03/09/2012
#7 ROCK en general

Mi canal de YouTube: http://www.youtube.com/user/VCPMusic?feature=mhee

Subir
#11 por xRustinPeacex el 03/09/2012
#4 HeY Ke pahaza kn el shaval, chido

:jajajaja:

Punk y Rock en general :D
Subir
#12 por Aressi el 03/09/2012
buscate algo de sum 41, the offspring y bandas de ese tipo, te recomiendo intentarlas sacar de oido viendo covers en youtube y ya ves mas o menos las posiciones donde le dan, es el metodo mas facil y rapido para aprender a sacarlas
Subir
Respuesta rápida

Regístrate o para poder postear en este hilo