ayuda sweep picking

#1 por dany_punkrock el 26/07/2007
ey q tal colegas?pues la verdad esq tengounas kuantas dudas sobre esta tecnica,y esq en algunos casos no se q dedos ay q utilizar y tengo miedo a acer ejercicios mal,pongo aqui algo de ejmplo



E-|-------------------12--15p12---------------------|
B-|---------------13--------------13-----------------|
G-|-----------12----------------------12-------------|
D-|-------14------------------------------14---------|
A-|---15--------------------------------------15-----|
E-|------------------------------------------------12-|
-------D---D--D--D--D----U-----U---U---U--U--U--


ay q dedos se utilizarian?y otra preguntilla,abajo ago el pull off en el traste 15 y luego en la nota del traste 12 ya le meto pariba no?,enga saludos
Subir
#2 por fakupunky el 26/07/2007
cuerda A : Traste 15......Dedo 4
cuerda D : Traste 14......Dedo 3
cuerda G : Traste 12 .....Dedo 1
cuerda B : Traste 13.......Dedo 2
cuerda E : Traste 12........Dedo 1 Traste 15........Dedo 4

Despues del pull off todo para arriba......
Subir
#3 por JmFernandez el 26/07/2007
Hace poco colgue un video con arpegios de seep picking, concretamente triadas mayores, te lo rescato
Concretamente ese es un arpegio de Do mayor, como los del video, el mio es a 3 cuerdas el tuyo a 5 debes usar el dedo meñique para el traste 15 y el anular para el 14, el resto como en el video



Aqui esta el pòst con mas datos, leelo.
http://www.guitarristas.info/foro/showthread.php?t=450

---------------------------------------------------------------------
JmFernadez - Co-administrador - http://WWW.GUITARRISTAS.INFO

Subir
#4 por dany_punkrock el 26/07/2007
gracias colegas
Subir
#5 por JmFernandez el 26/07/2007
Espero que te sirva, a por ellos...

---------------------------------------------------------------------
JmFernadez - Co-administrador - http://WWW.GUITARRISTAS.INFO

Subir
#6 por jordy4 el 30/03/2010
Bien, yo tengo una pequeña pregunta en cuanto a este sweep

E|--13--10------------------------------10-------------------------
B|-----------12---------------------12-----------------------------
G|---------------10-------------10---------------------------------
D|-------------------12-----12-------------------------------------
A|-----------------------14----------------------------------------
E|-----------------------------------------------------------------

este es conocido como el sweep de Si menor disminuido, y mi duda es que dedo se usa en la cuerda 4 (D), ya que yo uso el dedo 2 (medio) pero un chavo que sabe mucho pero es muy egoista me dijo que es el 3 (nular) y no se que dedo usar
Subir
Baneado
#7 por edgar_rg el 30/03/2010
Jordy4 escribió:
Bien, yo tengo una pequeña pregunta en cuanto a este sweep

E|--13--10------------------------------10-------------------------
B|-----------12---------------------12-----------------------------
G|---------------10-------------10---------------------------------
D|-------------------12-----12-------------------------------------
A|-----------------------14----------------------------------------
E|-----------------------------------------------------------------

este es conocido como el sweep de Si menor disminuido, y mi duda es que dedo se usa en la cuerda 4 (D), ya que yo uso el dedo 2 (medio) pero un chavo que sabe mucho pero es muy egoista me dijo que es el 3 (nular) y no se que dedo usar


Jajja no le llames egoista ya que hay mucha gente simple haci que solamente hablan para llamar la atencion pero no saben casi nada o nunca explican nada (pero casi siempre es por eso porque alguien que sabe si exlica)

Lo que debes de hacer en ese sweep no tiene nada de malo, imagino que tu haces esto
IMAO (Indice, medio, anular, meñique)
-p= pull off
ApI,M,I,M,A
Usando solo los 3 primeros dedos

Pero supuestamente la digitacion correcta seria
OpI,M,I,A,O

Pero basicamente lo puedes usar de cualquier forma (aunque recomiendo que utilizes mas el meñique), pero el meñique es bueno porque quetal si te viene un sweep asi

--------------------12---17---------
-----------------13--------------
--------------14------------------
-----------14-------------------
---12--15-----------------------
--------------------------------

Dime en el primer Mi y La?? Que hicieras?? alli debes de hacerlo con IMAO, y no con IMA, ya que como dieras el Do?? con el indice pero luego en el Mi?? Con el indice seria dificil, asi que mejor ponte a intentar usar todos los dedos :D

Nunca me cae mal un +1 es enserio! xDD
Mi unico amigo es la guitarra

Subir
#8 por jordy4 el 12/04/2010
edgar_rg escribió:
jajja no le llames egoista ya que hay mucha gente simple haci que solamente hablan para llamar la atencion pero no saben casi nada o nunca explican nada (pero casi siempre es por eso porque alguien que sabe si exlica)

lo que debes de hacer en ese sweep no tiene nada de malo, imagino que tu haces esto
imao (indice, medio, anular, meñique)
-p= pull off
api,m,i,m,a
usando solo los 3 primeros dedos

pero supuestamente la digitacion correcta seria
opi,m,i,a,o

pero basicamente lo puedes usar de cualquier forma (aunque recomiendo que utilizes mas el meñique), pero el meñique es bueno porque quetal si te viene un sweep asi

--------------------12---17---------
-----------------13--------------
--------------14------------------
-----------14-------------------
---12--15-----------------------
--------------------------------

dime en el primer mi y la?? Que hicieras?? Alli debes de hacerlo con imao, y no con ima, ya que como dieras el do?? Con el indice pero luego en el mi?? Con el indice seria dificil, asi que mejor ponte a intentar usar todos los dedos :d



imao??? Mia??? No entendi nada

AVER mira, te dire exactamente que dedo uso en el orden de las notas del tab que deje
E|--13--10------------------------------10-------------------------
B|-----------12---------------------12-----------------------------
G|---------------10-------------10---------------------------------
D|-------------------12-----12-------------------------------------
A|-----------------------14----------------------------------------
E|-----------------------------------------------------------------


INDICE>>>>1
MEDIO>>>>2
NULAR>>>>3
MENIQUE>>4



......4.....1.....2.....1...2....4...2...1....2.....1

E|--13--10------------------------------10-------------------------
B|-----------12---------------------12-----------------------------
G|---------------10-------------10---------------------------------
D|-------------------12-----12-------------------------------------
A|-----------------------14----------------------------------------
E|-----------------------------------------------------------------
asi es como yo le ago
Subir
#9 por anthony889 el 17/04/2010
a lo que se rrefiere mi amigo edgar_rg es al nombre de cada dedo IMAO = I:indice,M=medio,A=anular y la O no tengo idea la verdad xDDDD me imajino que es para el meñique
Subir
Respuesta rápida

Regístrate o para poder postear en este hilo