Ayuda con un punteo

#1 por asesino04 el 08/03/2011
Quien me puede ayudar a sacar este punteo?
yo saque esta parte, el principio

e ------------------------------------------
b ------------------------------------------
g ----------0-------------------------------
d --------0---------------------------------
a ----2-------------------------------------
E --3---------------------------------------

enrealidad no sauqe nada:D, pero para mi es mucho

Despues el final es algo asi

e --3--2-------------------------------------
b --------3--2-------------------------------
g ---------------3--2------------------------
d ---------------------3--2------------------
a ---------------------------3--2------------
E ---------------------------------3-3-------

y bueno me falta todo lo otro, jajaaj
Archivos adjuntos:
Subir
Baneado
#2 por pablo3001 el 09/03/2011
por mas que la saco no tendria la paciencia de escribirte la tablatura

si sacaste la primera parte saca la otra

http://www.guitarristas.info/foro/signaturepics/sigpic209170_1.gif

Subir
#3 por Pasando pantalla el 09/03/2011
Toca en este patrón, está en LAm:
||------|------|------|------|---·---|------|---·---|--·---|
||------|------|------|------|---·---|---·--|-------|--·---|
||------|------|------|---·--|---·---|------|---·---|------|
||------|------|------|------|---·---|------|---·---|------|
||------|------|------|------|---·---|------|---·---|---·--|
||------|------|------|------|---·---|------|---·---|--·---|

Métete la melodía en la cabeza y verás que es fácil sacarla.
:saludo:

http://www.guitarmonia.es/intervalos-musicales/intervalos-en-la-guitarra/
http://www.pianoaventura.com/documentos/curso_completo_de_teoria_de_la_musica.pdf
http://www.all-guitar-chords.com/guitar_scales.php
http://www.discoverguitaronline.com/

Subir
#4 por asesino04 el 09/03/2011
me esta ayudando un monton el patron ese, Gracias voy a ver si lo puedo sacar
Subir
Respuesta rápida

Regístrate o para poder postear en este hilo