AYUDA principiante inicio

#1 por 3alex93 el 19/06/2008
Buenas, domino perfectamente la guitarra española pero me gustaria aprender a tocar la guitarra electrica y por eso quiero qeu me enseñeis en cierto modo, quisiera saber cuales son las pentatonicas y para que sirven, y tambien los acordes con cejilla( 5ªs y esas cosas)

por favor respondedme si podeis

GRACIAS
Subir
#2 por cadorna123 el 19/06/2008
Escala pentatónica.



Estructura básica de la pentatónica menor.

E ||-----|-----|--1--|-----|-----|--2--|-----| 1ª cuerda
B ||-----|-----|--4--|-----|-----|--5--|-----|
G ||-----|-----|--2--|-----|--3--|-----|-----|
D ||-----|-----|--5--|-----|--1--|-----|-----|
A ||-----|-----|--3--|-----|--4--|-----|-----|
E ||-----|-----|--1--|-----|-----|--2--|-----|

Los números indican que grado le corresponde a la nota que estamos tocando, dentro de la escala pentatónica. La escala puede trasladarse a cualquier zona del mástil, lo único que ocurre es que cambia el tono.

Escala ascendente.

-------------------------------5--8--------------------------------8--5-
-------------------------5--8--------------------------------8--5-------
-------------------5--7--------------------------------7--5-------------
-------------5--7--------------------------------7--5-------------------
-------5--7--------------------------------7--5-------------------------
-5--8--------------------------------8--5-------------------------------

Ejercicio con la escala descendente.

-8--5-----5-------------------------------------------------------------
-------8-----8--5--8--5-----5-------------------------------------------
-------------------------7-----7--5--7--5-----5-------------------------
-------------------------------------------7----7--5--7--5--------------
------------------------------------------------------------7-----------
------------------------------------------------------------------------

Ambos ejercicios se deben practicar de manera muy lenta, en caso de poseer metrónomo debemos realizar los ejercicios a una velocidad NO superior a 60.

PD: te recomiendo usar el buscador, hay muchísimo mas material
Subir
#3 por Jrg Sts el 01/09/2008
D ||-----|-----|-----|-----|--4--|-----|-----|
A ||-----|-----|-----|-----|--3--|-----|-----|
E ||-----|-----|--1--|-----|-----|-----|-----|

ese es un acorde de 5, fijate que el indice esta en SOL, ese es G5, y asi lo mueves al traste que quieras y te da el acorde del indice, osea si lo mueves al quinto traste seria A5, si lo mueves al segundo seria F#5 y asi
:saludo:
Subir
Respuesta rápida

Regístrate o para poder postear en este hilo