Ayuda con las pentatonicas

#1 por the_eraser el 13/06/2011
Bueno, mi duda es la siguiente, yo fui un tiempo a guitarra y estoy con el tema de la improvisación, la cuestion es que a mi me enseñaron 5 pentatonicas distintas, pero numeradas del 1 al 5, y yo las conosco como pentatonica 1, 2, 3, 4, o 5... y no entiendo a que se refieren todos con por ejemplo pentatonicas menores, pentatonica de Gm, pentatonica de D.

Las pentatonicas que me enseñaron son estas:

Pentatonica 1

-------------------------------------8-10
---------------------------------8-10----
--------------------------7-9---------------
-------------------7-10------------------
-----------7-10-----------------------------
----8-10-----------------------------------


Pentatonica 2

-------------------------------------8-10
---------------------------------8-11----
--------------------------7-10---------------
-------------------8-10------------------
-----------8-10-----------------------------
----8-10-----------------------------------

Pentatonica 3

-------------------------------------8-11
---------------------------------9-11----
--------------------------8-10---------------
-------------------8-10------------------
-----------8-11-----------------------------
----8-11-----------------------------------

Pentatonica 4

-------------------------------------8-10
---------------------------------8-10----
--------------------------7-10---------------
-------------------7-10------------------
-----------8-10-----------------------------
----8-10-----------------------------------

Pentatonica 5

-------------------------------------8-11
---------------------------------8-11----
--------------------------8-10---------------
-------------------8-10------------------
-----------8-10-----------------------------
----8-11-----------------------------------


Agradeceria que me contesten:

1_Esas pentatonicas que me enseñaron están bien o me enseñaron cualquier cosa?
2_Cuales son las pentatonicas menores?
3_En caso de que estén bien esas pentatonicas, como las llevo a D por ejemplo? iniciando desde D en la sexta cuerda?

Se agradecen las respuestas
Subir
#2 por Pasando pantalla el 13/06/2011
Hola, the_eraser.
Mira, estas pentatónicas que te enseñaron en realidad son los 5 patrones de la pentatónica. Vamos a ver; si tocas cada uno de estos patrones en los trastes que has puesto estarás tocando en 5 tonalidades diferentes, ahora bien si quieres que estos 5 patrones te cubran todo el mástil para tocar en una sola tonalidad hay que ponerlos uno detrás del otro. Copio y pego tus patrones y los corrijo para que te cubran todo el mástil, y en rojo te marco la tónica DO.

Pentatonica DO mayor, 1er patrón.

---------------------------------------8-10--
---------------------------------8-10--------
--------------------------7-9----------------
-------------------7-10---------------------
-----------7-10-----------------------------
----8-10------------------------------------


Pentatonica DO mayor, 2º patrón.

-----------------------------------------10-12--
----------------------------------10-13---------
---------------------------9-12-----------------
--------------------10-12-----------------------
------------10-12-------------------------------
-----10-12--------------------------------------

Pentatonica DO mayor, 3er patrón.

-----------------------------------------12-15-
----------------------------------13-15---
---------------------------12-14--------------
--------------------12-14-----------------
------------12-15----------------------------
-----12-15----------------------------------

Pentatonica DO mayor, 4º patrón.

-----------------------------------------15-17--
----------------------------------15-17---------
---------------------------14-17----------------
--------------------14-17-----------------------
------------15-17-------------------------------
-----15-17--------------------------------------

Pentatonica DO mayor, 5º patrón.

-----------------------------------------17-20--
----------------------------------17-20---------
---------------------------17-19----------------
--------------------17-19-----------------------
------------17-19-------------------------------
-----17-20--------------------------------------

Para tocar en DOm cojes el 5º patrón que ahora será el 1º de la pentatónica menor de DO en el octavo traste y vas poniendo en el mismo orden el resto de patrones.

http://www.guitarmonia.es/intervalos-musicales/intervalos-en-la-guitarra/
http://www.pianoaventura.com/documentos/curso_completo_de_teoria_de_la_musica.pdf
http://www.all-guitar-chords.com/guitar_scales.php
http://www.discoverguitaronline.com/

Subir
#3 por Coco el 13/06/2011
Hola The_eraser, lo que has puesto es este dibujo en el mastil. Si te fijas el final de cada posición coincide con el principio del siguiente.

En este dibujo está la tónica en La, por lo tanto es la pentatonica de La . Si ese dibujo lo movemos en el mastil dos trastes mas arriba entonces estarías en la tonalidad de Sol, y así.

escalas-pentatonicas-3.jpg
Subir
#5 por the_eraser el 13/06/2011
Gracias por las respuestas, entonces depende la nota que tome como tonica el dibujo de las pentatonicas lo voy a correr en el mastil (eso es lo que entendi). Pero lo que todavia sigo sin entender es el tema de las pentatonicas menores, para tocar por ejemplo Cm, Dm, Em o todas las demas para todas uso el 5º patron?
Subir
#6 por R0BERT0 el 14/06/2011
Hola the_eraser ,,:si:y si:si: ,,:)para las Pentatònicas MENORES usas el 5º Patròn que te ha puesto Claudi :)
Subir
Respuesta rápida

Regístrate o para poder postear en este hilo