ayuda con, la mate por que era mia, de platero y tu para gp5

#1 por angelicus el 01/12/2009
A todos los fans de esta banda, a México no llegó mucho de ellos y quiero tocar con unos amigos esta rola pero como es a dos guitarras no suena bien cuando la tocamos, ademas de que somos principiantes en esto. Ayudenos x favor con la tablatura...
Saludos desde México.
Subir
#2 por angelicus el 22/12/2009
angelicus escribió:
A todos los fans de esta banda, a México no llegó mucho de ellos y quiero tocar con unos amigos esta rola pero como es a dos guitarras no suena bien cuando la tocamos, ademas de que somos principiantes en esto. Ayudenos x favor con la tablatura...
Saludos desde México.


Esa es la actitud ke se debe tener, la de ayudar a otros ke pasan los problemas por los ke ya pasamos nosotros. Te felicito por la iniciativa.
Tengo ya varias semanas pidiendo ayuda con el tab de LA MATE PORQUE ERA MIA, ojala puedas darte un tiempo y revises lo ke intente con el guitar pro, la verdad no suena muy bien , y el solo no se como hacerlo, todo lo sake de oido. GRACIAS...
Archivos adjuntos:
Subir
#3 por full_house el 12/05/2010
Wenas gente! este mes mi primer post, se ke este tema está puesto aki desde hace mucho pero weno.. lo he encontrao por el google y mira solo pa ayudar... me he puesto a escucharla ahora i creo k el principio (solo el principisimo) hace así:

los dedos en MIm osea:

-7-----
-7-8---
-7---9-
-7---9-
-7-----
-------

y vas tocando muteando las cuerdas esto

-----------------------------------
------8-7----------8-7-----------------
----------9------------9--------------
------------9------------9------------
--7-7----------7-7------------------
----------------------------------

despues se ponen los dedos así:

--------
-10-12--
--9-----
-10-----
--------
--------

y se va haciendo así:

-------------------------------------------
-------10-12-10---------10-12-10-----------------------
----9-----------9-----9----------9-------------
-10----------------10--------------------------
-------------------------------------------
-------------------------------------------

y luego cambias los dedos a esta posición:

-------------------------------------------
-12-14-----------------------------------------
-11------------------------------------------
-13-----------------------------------------
-------------------------------------------
-------------------------------------------

y tocas esto:

-------------------------------------------
-------12-14-12-----------12-14-12---------------------
----11----------11-----11----------11--------------
-13-----------------13-------------------------
-------------------------------------------
-------------------------------------------

y luego creo k la tab está bien... no soy experto pero creo k esta intro suena mejor ke la ke hay colgada aki.

suena mas o menos bien, pero pilladle el ritmillo.
Subir
Respuesta rápida

Regístrate o para poder postear en este hilo