Ayuda con maneras de vivir

#1 por Ruso López el 29/07/2012
Pues si alguien tiene la tab de maneras de vivir, si me la puede pasar se lo agradecaría muchísimo

Y tu,
Tormenta de truenos sin luz,
Eres símbolo de libertad,
Yo nunca podría vivir,
Sin tus cuerdas de acero tocar.



Si te gusto el comentario dale a la flechita verde ;D

Subir
#2 por WalterLopes el 29/07/2012
yo puse un post pdiendo lo mismo que tu hace mucho tiempo, y nadie me contesto... :D el caso es que ya no me acuerdo, y tampco tengo la partitura, pero si buscas un poco en internet la encuentras para guitar pro asique ha :ordenador:

Es una SIMPLE opinion de un HUMILDE guitarrista

Si te he ayudado, no olvides la flechita verde!! ;)

Subir
#3 por Ruso López el 29/07/2012
yo no la he encontrado, claro que soy torpe como yo solo, si la encuentro la subo para los que la busquen

Y tu,
Tormenta de truenos sin luz,
Eres símbolo de libertad,
Yo nunca podría vivir,
Sin tus cuerdas de acero tocar.



Si te gusto el comentario dale a la flechita verde ;D

Subir
#4 por WalterLopes el 29/07/2012
pon en google, "tablatura de maneras de vivir" y te salen acordes y tablaturas.

Es una SIMPLE opinion de un HUMILDE guitarrista

Si te he ayudado, no olvides la flechita verde!! ;)

Subir
#5 por Nazgul el 29/07/2012
RIFF 1
--------------------------------
--------------------------------
--0-9-7-0------9---7--------
------------------9---7---7----
------------------7---5---7----
---------------------------5----

RIFF2

--------------------------------
--------------------------------
--9--------7----------------------
--9---9---7---7---------------------
--7---9---5---7----------------------
-------7--------5------------------

SOLO

---------------------------------------------------
---------------------------------------------------
---11-11--11--9-9-911-9-11-9-11--------
---11-11--11--9-9-911-9-11-9-11--------
---9---9----9---7-7-7-9--7--9--7-9--------
--------------------------------------------------

Espero que te sirva ;)

http://www.nazgulguitars.com
https://www.facebook.com/Nazgul-Guitars-625440800844271/?fref=ts

Subir
#6 por Nazgul el 29/07/2012
#5 Se supone que son acordes pero me han quedau a diferentes distancias en la tablatura xD

http://www.nazgulguitars.com
https://www.facebook.com/Nazgul-Guitars-625440800844271/?fref=ts

Subir
#7 por smooby el 30/07/2012
Ahí la tienes para el guitar pro.
Un saludo.
Archivos adjuntos:
Subir
1
#8 por farifax el 30/07/2012
¿Por que no miras en el canal que tiene Eduxtreme en Vimeo? Ahi la toca y puedes sacarla muy facilmente viendo como lo hace.
Subir
#9 por Ruso López el 30/07/2012
muchas gracias me habéis ayudado mucho, ya me la estoy aprendiendo

Y tu,
Tormenta de truenos sin luz,
Eres símbolo de libertad,
Yo nunca podría vivir,
Sin tus cuerdas de acero tocar.



Si te gusto el comentario dale a la flechita verde ;D

Subir

HILOS SIMILARES

Respuesta rápida

Regístrate o para poder postear en este hilo