Ayuda por favor

#1 por soked el 13/10/2009
ayuda por favor hace 2 semanas me sacaron de mis clases de guitarra y la verdad quisiera seguir yo lo ultimo que aprendi fue los armonicos podrian poner los ejercicios que siguen por favor:saludo:
Subir
Baneado
#2 por Odio al Venereas el 13/10/2009
Armonico natural
-----12------
-------------
-------------
-------------
-------------
-------------
De pulgar
------------------
------------------
---------9--------
------------------
------------------
------------------
Ya sabes haces el armonico indicado en el traste que dice
Luego haces un armonico natural en el traste 12 de cada cuerda
---12-------------------------------
-------12---------------------------
------------12-----------------------
------------------12----------------
-------------------------12---------
------------------------------12----
Espero haberte ayudado.

Firma libre: Imaginala a tu gusto

Subir
Respuesta rápida

Regístrate o para poder postear en este hilo