Ayuda con este Solo

#1 por zergio24 el 19/05/2010
Me pueden decir si hay ejercicios para poder hacer este tipo de solos, qe no me salen!!
19-15----15-19-15----15-19-15----17-19-15----14-|
--------17----------17----------17----------17----|
--------------------------------------------------|
--------------------------------------------------|
--------------------------------------------------|
--------------------------------------------------|


--17-14----14-17-14----14-17-14----14-17-14----13-|
--------15----------15----------15----------15----|
--------------------------------------------------|
--------------------------------------------------|
--------------------------------------------------|
--------------------------------------------------|


--17-13----13-17-13----13-17-13----13-17-13----12-|
--------15----------15----------15----------15----|
--------------------------------------------------|
--------------------------------------------------|
--------------------------------------------------|
--------------------------------------------------|


--16-12----12-16-12----12-16-12----12-16-12----12/|
--------12----------12----------12----------12----|
--------------------------------------------------|
--------------------------------------------------|
--------------------------------------------------|
--------------------------------------------------|

es el solo de ride the lighting de Metallica
Subir
#2 por carlillo el 19/05/2010
Yo lo que haría sería bajar el tempo del solo en el guitar pro, y tocarlo poco a poco y lentito. Aquí tienes la partitura en GP http://www.ultimate-guitar.com/tabs/m/metallica/ride_the_lightning_ver5_guitar_pro.htm

Si te sirven, busca ejercicios de alternate picking y legato por el foro. Creo que serían de ayuda.

Un saludo :)

“Hubiera preferido cantar blues en cualquier pequeño sitio lleno de humo en vez de pasarme las noches de mi vida escarbando en el lenguaje como una loca”

Subir
#3 por asphix el 19/05/2010
Claro que hay muchos ejercicios, busca ejercicios de alternate picking, practica escalas, escalas a intervalos, licks, etc... date una vuelta por la seccion de tecnica y los diarios de practica para que vayas armandote de unos buenos ejercicios...

-----------------------------------------------------
La falta de talento se puede compensar con disciplina...

Subir
Respuesta rápida

Regístrate o para poder postear en este hilo