Ayuda con digitación

#1 por Olverio el 02/03/2013
Vamos a ver, a menudo me encuentro en tablaturas con un acorde que no sé muy bien cómo digitar. Se trata de un power chord con la quinta aumentada (quizás no sea extrictamente power chord pero así me entiendo), sería así:

-----
-----
--7--
--8--
--5--
-----

El problema lo tengo en que no sé si digitar el 8 con el meñique y el 7 con el anular (con lo que dejo el corazón libre para notas en las cuerdas superiores) o el 8 con el anular y el 7 con el corazón. En realidad creo que lo correcto sería de la primera forma pero siempre que lo intento así el meñique me toca la tercera cuerda y "tapa" el 7, con lo que este no suena.

En concreto lo estoy usando en la siguiente progresión de acordes

----------------------------
----------------------------
----7----7-----7-----7----
----7----8-----7-----6----
----5----5-----5-----5----
----------------------------

Pues eso es, ¿qué me decís?

"The tone isn´t in your fingers, it´s in the knob near the volume button"

Subir
#2 por oscarHGS el 02/03/2013
Sin duda lo digitaria así

----------------------------
----------------------------
----7----7-----7-----7----
----7----8-----7-----6----
----5----5-----5-----5----
----------------------------

----4 ----3 ----4 ----3----
----3 ----4 ----3 ----2----
----1 ----1 ----1 ----1----

Solo practica y pronto desaparecera el problema de mutear la 3ra cuerda con el meñique, es como dominar los acordes tocados con cejilla. A si y numere los dedos en mi grafico XD jaja 1=anular 4=meñique.
suerte!
Subir
#3 por yellow dog el 02/03/2013
oscarHGS escribió:
----------------------------
----------------------------
----7----7-----7-----7----
----7----8-----7-----6----
----5----5-----5-----5----
----------------------------

----3 ----3 ----3 ----3----
----3 ----4 ----3 ----2----
----1 ----1 ----1 ----1----
Otra opcion, que no difiere mucho de la de Oscar
Subir
1
Respuesta rápida

Regístrate o para poder postear en este hilo