Ayuda con digitación en un tema

#1 por N.C. el 17/06/2011
Estoy aprendiendo Arpeggios From Hell (obviamente de Malmsteen).

Tengo una duda cuando toca, por ejemplo

[CODE] W
E S S S S S S S S S S
------------------------------------|
------------------------------------|
---------------------------14----14-|
---------10----10-14-10-14----14----|
--12--12----12----------------------|
------------------------------------|


S S S S S S Q.
-----------12----12-15b~------|
--13----13----13--------------|
-----14-----------------------|
------------------------------|
------------------------------|
------------------------------|[/CODE]

En la parte que pasa por el traste 14, se usa un dedo o dos?

Y tengo otra duda

[CODE] T. T. T. T. T. T. T. T. T.T. T. T.T. T.
--15-14-12-11--------------------------------
--------------13-12-10-----------------------
-----------------------12-11-9--8------------
-----------------------------------10-9--7---
--------------------------------------------1
---------------------------------------------


W
T. T. T. T. T. T. T. Q. T.
----------------------------------||
----------------------------------||
---------------------------------*||
---------------------------------*||
--7--6----------------------------||
--------8--7--5--3--2--0------L---||[/CODE]

Esta parte, obviamente la hace a velocidad Malmsteen :risa: ustedes recomiendan que lo haga ligado o todo tocado con la púa, porque si lo hago ligado, las notas de la escala armónica me complican la vida.
Subir
#2 por azote87 el 17/06/2011
En la parte que pasa por el traste 14 en tu primer duda usas solo un dedo, si mal no recuerdo (saque el tema hace tiempo ya, pero no tengo la guitarra encima) el indice, para tocar ambas notas.

Y en cuanto a tu segunda duda, te pongo los slides que hacia yo, el resto, todo con pua ..

|-15-14-12/11--------------------------------|-------------------------||
|-------------13-12-10-----------------------|------------------------o||
|----------------------12-11-9/8-------------|-------------------------||
|--------------------------------10-9-7------|-------------------------||
|---------------------------------------10-9-|-7/6--------------------o||
|--------------------------------------------|-----8-7-5-3-2-0-0/------||

No entiendo mucho de teoria, pero todo es tocado con un feel de seiscillos, espero te ayude..:saludo:

"Pick like a man!.."

-Matt Heafy.

Subir
#3 por N.C. el 17/06/2011
azote87 escribió:
En la parte que pasa por el traste 14 en tu primer duda usas solo un dedo, si mal no recuerdo (saque el tema hace tiempo ya, pero no tengo la guitarra encima) el indice, para tocar ambas notas.

Y en cuanto a tu segunda duda, te pongo los slides que hacia yo, el resto, todo con pua ..

|-15/14-12-11--------------------------------|-------------------------||
|-------------13-12-10-----------------------|------------------------o||
|----------------------12-11-9/8-------------|-------------------------||
|--------------------------------10-9-7------|-------------------------||
|---------------------------------------10-9-|-7/6--------------------o||
|--------------------------------------------|-----8-7-5-3-2-0-0/------||

No entiendo mucho de teoria, pero todo es tocado con un feel de seiscillos, espero te ayude..:saludo:


Lo del traste 14 no puede ser con el índice porque el arpegio sigue bajando para la izquierda :leyendo:

Y lo de los slide me sirvió MUCHO, gracias :brindis:
Subir
#4 por azote87 el 17/06/2011
Ah , es que yo uso esta digitacion.. yo uso el indice en el 14 y el anular para el 17, espero se entienda..:saludo:

[code] W
E S S S S S S S S S S
------------------------------------|
------------------------------------|
---------------------------14----14-|
---------10----10-14-10-14----14----|
--12--12----12----------------------|
------------------------------------|


S S S S S S Q.
----------------17------------|
----------17--17--------------|
--17-14-17--17----------------|
------------------------------|
------------------------------|
------------------------------|[/code]

"Pick like a man!.."

-Matt Heafy.

Subir
#5 por Pasando pantalla el 17/06/2011
..2.....2....1...2..1...3...1...3..3..3..3...2...3...2..1..2...1...3
--------------------------------------------------------12----12-15b~---|
---------------------------------------------13----13----13-------------|
-----------------------------------14----14---14------------------------|
-----------10----10-14-10-14----14------------------------------------|
--12--12----12-----------------------------------------------------------|
----------------------------------------------------------------------------|

También puedes cambiar la digitación.
..2.....2....4....2....4...3...4..3..3..3..3..2..3...2..1..2...1...3
--------------------------------------------------------12----12-17b~---|
---------------------------------------------13----13----13-------------|
-----------------------------------14----14---14------------------------|
-------------------------14----14----14------------------------------------|
-12--12--15--12--15----15-----------------------------------------------|
----------------------------------------------------------------------------|

¿De tu segunda duda, es quinta cuerda traste 1?

http://www.guitarmonia.es/intervalos-musicales/intervalos-en-la-guitarra/
http://www.pianoaventura.com/documentos/curso_completo_de_teoria_de_la_musica.pdf
http://www.all-guitar-chords.com/guitar_scales.php
http://www.discoverguitaronline.com/

Subir
#6 por N.C. el 17/06/2011
Claudi escribió:
..2.....2....1...2..1...3...1...3..3..3..3...2...3...2..1..2...1...3
--------------------------------------------------------12----12-17b~---|
---------------------------------------------13----13----13-------------|
-----------------------------------14----14---14------------------------|
-----------10----10-14-10-14----14------------------------------------|
--12--12----12-----------------------------------------------------------|
----------------------------------------------------------------------------|

También puedes cambiar la digitación.
..2.....2....4....2....4...3...4..3..3..3..3..2..3...2..1..2...1...3
--------------------------------------------------------12----12-17b~---|
---------------------------------------------13----13----13-------------|
-----------------------------------14----14---14------------------------|
-------------------------14----14----14------------------------------------|
-12--12--15--12--15----15-----------------------------------------------|
----------------------------------------------------------------------------|

¿De tu segunda duda, es quinta cuerda traste 1?



Gracias, así es como lo hago pero me queda medio incómodo, pero bueno, tendré que seguir practicando :leyendo:
Mi segunda duda ya está resuelta, gracias :brindis:
Subir
#7 por Pasando pantalla el 17/06/2011
...4....3....2...1...4..3...1..4...3..2.1.4.3.1.4..3..2.1.4.3.2.1/1
|-15-14-12-11------------------------------------------------------------|
|-----------------13-12-10------------------------------------------------|
|----------------------------12-11-9-8------------------------------------|
|----------------------------------------10-9-7----------------------------|
|------------------------------------------------10-9--7-6-----------------|
|------------------------------------------------------------8-7-5-3/2-0-0|

http://www.guitarmonia.es/intervalos-musicales/intervalos-en-la-guitarra/
http://www.pianoaventura.com/documentos/curso_completo_de_teoria_de_la_musica.pdf
http://www.all-guitar-chords.com/guitar_scales.php
http://www.discoverguitaronline.com/

Subir
Respuesta rápida

Regístrate o para poder postear en este hilo