ayuda a decibrar tabs que no se como se marcan

#1 por melomanometalero el 26/07/2009
pues he encontrado varias tablaturas muy raras que no entiendo aqui estan

here are some tabs that i dond´t understand ,please help

tapping
WTf??? how to ,como rayos marco eso
B E G B E G
R2 po L1 ho L4 ho R2 po L1 ho L4 ho --------?? eso que es
--------------------------------------------------
--------------------------------------------------
--16------9-------12------16------9-------12------
--------------------------------------------------
--------------------------------------------------
--------------------------------------------------


y aqui otra de tapping eso creo ,another of tapping i guess
|---3---|
H E E S S S E Q. S S E E E E
--14~------------15--14h15p-14-----|----------------------14--17--19--|
-------------17------------------17--|--15~------17p-15-14-------------|
------------------------------------|----------------------------------|
------------------------------------|----------------------------------|
------------------------------------|----------------------------------|
------------------------------------|----------------------------------|

andanother later in the song

the diference is the "L" why L and not 13 or another number
por que la L en vez de un numero


H Q Q Q Q Q H
-------------------------------|-------------------------|
-------------------------------|--------15---------------|
--/16~--------L----14----12-- |--14----------11~----- |
-------------------------------|-------------------------|
-------------------------------|-------------------------|
-------------------------------|-------------------------|


y habia otras donde habie una W arriba
and there was another with a W above

W

----------
-19pbr~-- y de una vez en hablando de este tema

he hencontrado muchas veces algo asi

and also i found this

e|-16b18r16------------------
B|----------------------------|


i dont get it , help how to do this

como se marca eso ,tengo dudas

se poncha (pick,plumiyear,picar,) en 16 y luego se interrumpe el sonido para puchar y hacer el bend con el 18 y luego se vuelve a punchar pero esta vez cuando bajan los dedos pero en el traste 16



y otras veces he visto en vez de las letras comunes



E---------
b----------
H----------
d---------

no me acuerdo la letra que es sustituida
pero hay unha h y no se que es lo que signifique

bueno si es un chingo pero me ayudaria de mucho su ayuda

saludos y les agraddesco de antemano su ayuda
---------------------------------
no se copio bien lo que puse

las letras que estan arriba de los numeros

deben de ir ensima de cada uno

es decir
---- Q---- estas lineas no deben de ir ahi pero sino las pongo se recorren los espacios como arriba
-----8---

y el l---3---l va arriba de los que estan juntos S S S los que llevan pulls offs

bueno espero entiedan y me puedan ayudar
Subir
#2 por asphix el 26/07/2009
Hechale una ojo al tema de La Biblia del Guitarrista Novato, ahi podras encontrar guias de como interpretar las tablaturas...

-----------------------------------------------------
La falta de talento se puede compensar con disciplina...

Subir
Respuesta rápida

Regístrate o para poder postear en este hilo