Ayuda con Arpegios Disminuidos

#1 por metaljuan el 16/09/2010


Siempre me he preguntado como son esos arpegios que hace el maestro Jari en este video... son disminuidos, pero parece que son de 5 o 6 cuerdas, y pues solo se como hacer uno, por ejemplo este en F#

----------5-8-------------
--------7-----------------
------5-------------------
----7---------------------
--9-----------------------
--------------------------

Si pudieran facilitarme mas posiciones de disminuidos con 5 o 6 cuerdas les agradeceria mucho, Gracias de antemano:brindis:

Sail To The Void
http://www.myspace.com/metaljuanjose

Subir
#2 por eryou el 16/09/2010
por ej:
-------------------------------11-14-
-----------------------10-13---------
-----------------8-11-----------------
-----------7-10-----------------------
------6-9-----------------------------
-5-8----------------------------------

Ten en cuenta que el arpegio disminuido se caracteriza por tener sus notas separadas simétricamente cada 1 tono y medio (si van seguidas). Utilizado en el lugar correcto, encaja perfectamente con la escala armónica.

:saludo:

CLASES DE GUITARRA ELÉCTRICA, TEORÍA MUSICAL Y COMPOSICIÓN, PRESENCIALES Y ONLINE

Subir
#3 por metaljuan el 22/09/2010
Seeee, ya habia travesiado con esa figura, pero igual gracias.
Ademas tuve que sacar a oido lo que sale tocando Jari, y pues no se como se llama, pero la parte final si es un disminuido, va algo asi:

--------------------8--11-----
----------------10------------
----------9-11---------------
------10---------------------
9-12------------------------
-----------------------------

Si alguien me puede decir como se llama, muchas gracias:D

Sail To The Void
http://www.myspace.com/metaljuanjose

Subir
Respuesta rápida

Regístrate o para poder postear en este hilo