Ayuda con los acordes de una cancion

#1 por felaiee el 29/05/2011
Hola
No se si alguien podria ayudarme con los acordes de esta cancion, es que no tengo muy buen oido y me encanta la cancion, y otra cosa, al final cuando toca la trompeta es asi

A|-5-7--5-7--5-7 :virtuoso:

o no

Gracias de antemano :gracias:

http://www.youtube.com/watch?v=WTdFb3K5ruM[/YOUTUBE][YOUTUBE]http://www.youtube.com/watch?v=WTdFb3K5ruM[/YOUTUBE]
Subir
#2 por Pasando pantalla el 04/06/2011
Fijándome en la altura donde tiene la mano en el mástil en el min 1:25 diría que los acordes son estos:
|-------------------------------7---7--|
|--8--10--10--10---8--10---8---8-|
|--9---9---9----9---9---9----9----9-|
|-10--10-10---10--10-10---9---9-|
|-10---8--8-----8--10--8-----------|
|---------------------------------------|
...C....F7...............C...F7....Em
Los 2 acordes de la intro son C y F7.

Y también toca estos otros dos acordes:
|--8----9---|
|--8----9---|
|--9---10---|
|-10----9---|
|-10---11--|
|--8----9---|
...C....Db7

Cuando canta el guitarrista en el min 2:24 toca estos acordes:
|-------10-------------------|
|-10---13----------8---10-|
|-10---10---------10---9--|
|-10---12----------9---10-|
|-12---10---------10---8--|
|-----------------------------|
..F/A....G7sus4...G7...F7

El final rápido lo hace con acordes que ya te he mostrado aquí.
:brindis:

http://www.guitarmonia.es/intervalos-musicales/intervalos-en-la-guitarra/
http://www.pianoaventura.com/documentos/curso_completo_de_teoria_de_la_musica.pdf
http://www.all-guitar-chords.com/guitar_scales.php
http://www.discoverguitaronline.com/

Subir
#3 por felaiee el 11/06/2011
Gracias Claudi, yo tambien intente viendo la posicion de sus dedos, pero aun no desarrollo muy bien mi oido

Ahora si a practicar

2114964df38a7d549d4.gif
Subir
#5 por felaiee el 15/06/2011
Claudi escribió:
Gracias por el +1. :brindis:


no hay de que:brindis:
Subir
Respuesta rápida

Regístrate o para poder postear en este hilo