Alternate Picking

#1 por nsal69 el 16/08/2009
Bueno, primero que nada hola al foro:saludo:

Cree este post para que todos coloquen sus formas de ejercitar el alternate picking.

Mi problema es el cambio de cuerdas al usar esta tecnica.
El ejercicio que estoy usando actualmente es este...

--00--------------------00--------e
----00----------------00----------B
------00------------00------------G
--------00--------00--------------D
----------00----00----------------A
-------------00-------------------E

Pero no veo muchos resultados :(

Bueno espero sus respuestas y esto ayudara tambien a los nuevos usuarios. :saludo:

Mira mi cover del solo de Beat it - Van Halen :P
http://www.youtube.com/watch?v=XcNHq3C1KyU

Subir
#2 por davr el 16/08/2009
Lo hago en triadas de corcheas (3 notas por cada golpe de metronomo) asi de paso aprovechas para practicar ritmo, ademas saltos de cuerdas que nunca estan de mas.

------------------------------124-------e
----------------------124---------134---B
-------------124----------134-----------G
-----124---------134--------------------D
---------134-----------------------------A
-134-------------------------------------E

Igual que pongo 1,2,3 y 4 sirve igualmente con ceros pero con notas practicas digitacion.


PD: Ritmo,saltos de cuerda,digitacion y alternate por el precio de 1, esto si que son ofertas

"Jesus camina sobre las aguas, Chuck Norris camina sobre Jesus"

Subir
#3 por ibañezz el 17/08/2009
trata de practicar escalas al final es mejor que aprender ejercicios cualquiera, porque te aprendes la escalas, aprendes a improvisar con ella y te ejercita.
:saludo:
Subir
#4 por asphix el 17/08/2009
No se cuanto tiempo llevas tocando la guitarra, el ejercicio que al que haces mencion es bueno cuando inicias con el alternate y vas coordinando el cambio de cuerdas y sobre todo para ir midiendo el espacio entre las cuerdas, practicalo despacio, iniciando con el golpe de la plumilla hacia abajo, y despues otra ronda iniciando con el golpe de la plumilla hacia arriba...

-----------------------------------------------------
La falta de talento se puede compensar con disciplina...

Subir
Respuesta rápida

Regístrate o para poder postear en este hilo