¿Alguien tiene diagramas en TABs de escalas disminuidas?

#1 por igna_666 el 13/08/2008
Buenas soy igna_666 y queria que me pasen unas escalas disminuidas ya que como nunka aprendi a leer musica (las que se escriven con corcheas y ezo) no entiendo nada y con numeros no las consigo :evil: asique si alguien seria tan groso de ayudarme :D estaria muy feliz de que me las pasen !!!
Subir
#2 por samuelg el 13/08/2008
Si escribes correctamente y pones títulos que tengas sentido a lo mejor entra alguien y te ayuda...:|
Subir
#3 por niko-9797 el 06/09/2008
Porke sos tan pesimista samuel? esta bien formulado el titulo... aca dejo un espero q te sirva





Pos 1:
----------------------10-13-10----------------------
-----------------9-12----------12-9-----------------
------------7-10--------------------10-7------------
--------6-9------------------------------9-6--------
----5-8--------------------------------------8-5----
4-7----------------------------------------------7-4

Pos 2:
----------------4-7-4----------------
--------------6-------6--------------
----------4-7-----------7-4----------
--------6-------------------6--------
----5-8-----------------------8-5----
4-7-------------------------------7-4

Pos 3:
----------------4-7-4----------------
------------3-6-------6-3------------
----------4---------------4----------
------3-6-------------------6-3------
----5---------------------------5----
4-7-------------------------------7-4

Esta escala está formada por los siguientes grados e intervalos:


Grados: I IIIm Vm VII
Intervalos: 1/2, 1/2, 1/2...



Salute,,
Subir
#4 por igna_666 el 06/09/2008
Gracias masterte devo 1 !!!
Subir
Respuesta rápida

Regístrate o para poder postear en este hilo