55 Escape - Forever

#1 por ienell el 28/03/2011
Bueno nose si este tema deberia ir en este foro o no...el caso esque lo he buscado por todos lados y no encuentro ninguna tablatura ni nada que de alguna pista de esta cancion
http://www.youtube.com/watch?v=mSaL9HT03rE&feature=related[/YOUTUBE] a ver si alguien me puede subir la tab o algun sitio donde pueda encontrarla...ya he probado en ultimate guitar tabs y el 911 tabs...ninguna de las 2 me da la tab.. Un saludo y gracias[YOUTUBE]http://www.youtube.com/watch?v=mSaL9HT03rE&feature=related[/YOUTUBE]
a ver si alguien me puede subir la tab o algun sitio donde pueda encontrarla...ya he probado en ultimate guitar tabs y el 911 tabs...ninguna de las 2 me da la tab..
Un saludo y gracias
Subir
#2 por ienell el 08/04/2011
nadie sabe algo de esta cancion?? le doy una subidita a ver si sale alguien que sepa como va...
Subir
#3 por Pasando pantalla el 13/04/2011
Bueno, va. Que veo que nadie la saca. Consta de 3 progresiones.
La primera: intro+estrofa consta de estos acordes aunque va variando su rítmica según el momento:
-----------|---------------------
-----------|---------------------
-----------|---------------------
-----------|---------------------
-2--3--5--|-2~~3~~5~~--
-2--3--5--|--------------------

Estribillo:
----------------
----------------
----------------
-4--5-----7---
-2--3--5--5--
--------3------

Después del segundo estribillo:
--------------------------------------------
--------------------------------------------
--------------------------------------------
--------------------------------------------
---------0-2-2-(pm)2-2--2-2-0-2-2---
-3~2~-0-2-2------------------0-2-2---

No hay más. Si tienes alguna duda me lo dices.
:brindis:

http://www.guitarmonia.es/intervalos-musicales/intervalos-en-la-guitarra/
http://www.pianoaventura.com/documentos/curso_completo_de_teoria_de_la_musica.pdf
http://www.all-guitar-chords.com/guitar_scales.php
http://www.discoverguitaronline.com/

Subir
#4 por ienell el 27/05/2011
ok muchas gracias :D
Subir
Respuesta rápida

Regístrate o para poder postear en este hilo